Serj on SoaDpage Serj on SoaDpage

Свободу от фальшивого равенства вам может принести только www.soad.msk.ru
 
FAQ :: Поиск :: Пользователи :: Группы :: Регистрация
Профиль :: Войти и проверить личные сообщения :: Вход

табы
На страницу Пред.  1, 2, 3, 4  След.
 
Начать новую тему   Ответить на тему    Список форумов Serj on SoaDpage -> Solo Projects
Предыдущая тема :: Следующая тема  
Автор Сообщение
genj
Солнц))


Зарегистрирован: 07.07.2007
Сообщения: 8494

СообщениеДобавлено: Чт Июн 05, 2008 11:35 am    Заголовок сообщения: Ответить с цитатой

IgorPunk писал(а):
xART писал(а):
IgorPunk писал(а):
xART писал(а):
IgorPunk писал(а):
кому надо табы к Scars on Broadway Kill Each other?

Ты мне покажи где они такую песню играли вообще?

ну это та типа "Is the anybody here,who makes me crying..." можт че то не так,короче как услышал так и написал.

Это на каком концерте было??

На последнем с Металикой..KROW, Weenie Roast 2008

прикольно
Вернуться к началу
Посмотреть профиль Отправить личное сообщение Отправить e-mail
haares
Apostate


Зарегистрирован: 28.02.2008
Сообщения: 36
Откуда: Сургут

СообщениеДобавлено: Чт Июн 05, 2008 2:19 pm    Заголовок сообщения: Ответить с цитатой

IgorPunk писал(а):

ну это та типа "Is the anybody here,who makes me crying..." можт че то не так,короче как услышал так и написал.

Whore Street
Вернуться к началу
Посмотреть профиль Отправить личное сообщение
xART
Crazy Motherfucker


Зарегистрирован: 19.10.2007
Сообщения: 811
Откуда: 4ернигофф

СообщениеДобавлено: Чт Июн 05, 2008 3:55 pm    Заголовок сообщения: Ответить с цитатой

А, улица шлюх!! Так бы сразу и сказали))) Пиздатенная песня!
Вернуться к началу
Посмотреть профиль Отправить личное сообщение
Мишка
Инкогнитивная какашка


Зарегистрирован: 27.06.2007
Сообщения: 8134

СообщениеДобавлено: Пт Июн 06, 2008 12:34 am    Заголовок сообщения: Ответить с цитатой

genj писал(а):
прикольно

Прикольно смотрится твой потс.Цитата на цитате,да цитатой погоняет.
_________________
Жаркая пустыня Дагестана.За высоким барханом лежит труп.Это мой,мой,мой труп лежит.Из свежей раны течёт кровь.Это моя,моя,моя кровь течёт.И в жаркой пустыне Дагестана за высоким барханом чей-то труп знакомый валяется!Это мой труп!Нет.Это твой труп?Нет.Это наш труп!И из ещё дымящейся раны течёт алая кровь.
Вернуться к началу
Посмотреть профиль Отправить личное сообщение Отправить e-mail
genj
Солнц))


Зарегистрирован: 07.07.2007
Сообщения: 8494

СообщениеДобавлено: Пт Июн 06, 2008 12:35 am    Заголовок сообщения: Ответить с цитатой

как-будто кинотеатр
Вернуться к началу
Посмотреть профиль Отправить личное сообщение Отправить e-mail
Мишка
Инкогнитивная какашка


Зарегистрирован: 27.06.2007
Сообщения: 8134

СообщениеДобавлено: Пт Июн 06, 2008 12:41 am    Заголовок сообщения: Ответить с цитатой

Гипнотическая такая фигня получилась.Я минуты две смотрел.
_________________
Жаркая пустыня Дагестана.За высоким барханом лежит труп.Это мой,мой,мой труп лежит.Из свежей раны течёт кровь.Это моя,моя,моя кровь течёт.И в жаркой пустыне Дагестана за высоким барханом чей-то труп знакомый валяется!Это мой труп!Нет.Это твой труп?Нет.Это наш труп!И из ещё дымящейся раны течёт алая кровь.
Вернуться к началу
Посмотреть профиль Отправить личное сообщение Отправить e-mail
genj
Солнц))


Зарегистрирован: 07.07.2007
Сообщения: 8494

СообщениеДобавлено: Пт Июн 06, 2008 12:43 am    Заголовок сообщения: Ответить с цитатой

прикольно
Вернуться к началу
Посмотреть профиль Отправить личное сообщение Отправить e-mail
ALuserX
псих-одиночка


Зарегистрирован: 14.10.2005
Сообщения: 9824
Откуда: немецыя

СообщениеДобавлено: Пт Июн 06, 2008 12:46 am    Заголовок сообщения: Ответить с цитатой

ну, х.з., хз.. ..
_________________

`$=`;$_=\%!;($_)=/(.)/;$==++$|;($.,$/,$,,$\,$",$;,$^,$#,$~,$*,$:,@% )=(
$!=~/(.)(.).(.)(.)(.)(.)..(.)(.)(.)..(.)......(.)/,$"),$=++;$.++;$.++;
$_++;$_++;($_,$\,$,)=($~.$"."$;$/$%[$?]$_$\$,$:$%[$?]",$"&$~,$#,);$,++
;$,++;$^|=$";`$_$\$,$/$:$;$~$*$%[$?]$.$~$*${#}$%[$?]$;$\$"$^$~$*.>&$=`
Perl rulz!

http://www.naushko.ru/voteresult.php?id=105773
Вернуться к началу
Посмотреть профиль Отправить личное сообщение Отправить e-mail Посетить сайт автора AIM Address Yahoo Messenger MSN Messenger
Мишка
Инкогнитивная какашка


Зарегистрирован: 27.06.2007
Сообщения: 8134

СообщениеДобавлено: Пт Июн 06, 2008 12:47 am    Заголовок сообщения: Ответить с цитатой

Как показать собеседнику,что вы глубоко задумались на тем,что он сказал,но в конце концов ответа так и не нашли?
_________________
Жаркая пустыня Дагестана.За высоким барханом лежит труп.Это мой,мой,мой труп лежит.Из свежей раны течёт кровь.Это моя,моя,моя кровь течёт.И в жаркой пустыне Дагестана за высоким барханом чей-то труп знакомый валяется!Это мой труп!Нет.Это твой труп?Нет.Это наш труп!И из ещё дымящейся раны течёт алая кровь.
Вернуться к началу
Посмотреть профиль Отправить личное сообщение Отправить e-mail
genj
Солнц))


Зарегистрирован: 07.07.2007
Сообщения: 8494

СообщениеДобавлено: Пт Июн 06, 2008 12:47 am    Заголовок сообщения: Ответить с цитатой

Мишка
Confused
Вернуться к началу
Посмотреть профиль Отправить личное сообщение Отправить e-mail
Мишка
Инкогнитивная какашка


Зарегистрирован: 27.06.2007
Сообщения: 8134

СообщениеДобавлено: Пт Июн 06, 2008 12:48 am    Заголовок сообщения: Ответить с цитатой

Это с баша.
_________________
Жаркая пустыня Дагестана.За высоким барханом лежит труп.Это мой,мой,мой труп лежит.Из свежей раны течёт кровь.Это моя,моя,моя кровь течёт.И в жаркой пустыне Дагестана за высоким барханом чей-то труп знакомый валяется!Это мой труп!Нет.Это твой труп?Нет.Это наш труп!И из ещё дымящейся раны течёт алая кровь.
Вернуться к началу
Посмотреть профиль Отправить личное сообщение Отправить e-mail
Денис
Crazy Motherfucker


Зарегистрирован: 17.03.2008
Сообщения: 820

СообщениеДобавлено: Пт Июн 06, 2008 5:23 pm    Заголовок сообщения: Ответить с цитатой

Спасибо тебе чувак за табу.[/quote]
Вернуться к началу
Посмотреть профиль Отправить личное сообщение
Sigizmund
Prisoner


Зарегистрирован: 26.09.2007
Сообщения: 69

СообщениеДобавлено: Пт Июн 06, 2008 9:09 pm    Заголовок сообщения: Ответить с цитатой

Мишка писал(а):
Как показать собеседнику,что вы глубоко задумались на тем,что он сказал,но в конце концов ответа так и не нашли?


хм... хз...
_________________
отважный распиздяй (с)

эй, в чем нахуй ебаное дело? (с)
Вернуться к началу
Посмотреть профиль Отправить личное сообщение
Мишка
Инкогнитивная какашка


Зарегистрирован: 27.06.2007
Сообщения: 8134

СообщениеДобавлено: Сб Июн 07, 2008 12:04 am    Заголовок сообщения: Ответить с цитатой

Да,именно. Smile
_________________
Жаркая пустыня Дагестана.За высоким барханом лежит труп.Это мой,мой,мой труп лежит.Из свежей раны течёт кровь.Это моя,моя,моя кровь течёт.И в жаркой пустыне Дагестана за высоким барханом чей-то труп знакомый валяется!Это мой труп!Нет.Это твой труп?Нет.Это наш труп!И из ещё дымящейся раны течёт алая кровь.
Вернуться к началу
Посмотреть профиль Отправить личное сообщение Отправить e-mail
IgorPunk
Apostate


Зарегистрирован: 26.05.2008
Сообщения: 44

СообщениеДобавлено: Пн Июл 07, 2008 9:13 pm    Заголовок сообщения: Ответить с цитатой

Денис писал(а):
Спасибо тебе чувак за табу.
[/quote]
Не зачто если нужна будет другая таба проси...
П.С та первая не точная,если кому надо выложу нормальную...
Вернуться к началу
Посмотреть профиль Отправить личное сообщение
IgorPunk
Apostate


Зарегистрирован: 26.05.2008
Сообщения: 44

СообщениеДобавлено: Пн Июл 07, 2008 9:14 pm    Заголовок сообщения: Ответить с цитатой

haares писал(а):
IgorPunk писал(а):

ну это та типа "Is the anybody here,who makes me crying..." можт че то не так,короче как услышал так и написал.

Whore Street

да!!!точно
Вернуться к началу
Посмотреть профиль Отправить личное сообщение
IgorPunk
Apostate


Зарегистрирован: 26.05.2008
Сообщения: 44

СообщениеДобавлено: Вс Июл 20, 2008 11:18 pm    Заголовок сообщения: Ответить с цитатой

http://filesurf.ru/50551
тут не все табы,ещё не подобрал,но вот нашел на сайтах

3005
slide guitar:

|--------------------------------------------------------|
|--------------------------------------------------------|
|---2--5-----7--4-------4------7---5---4-5-4----2--------| x2
|--------------------------------------------------------|
|--------------------------------------------------------|
|--------------------------------------------------------|

A:

|-----0------------------------------0-----------------|
|--1----1-------1----------------1----------1----------|
|--2----------2---2----------2-----------2----2--------|
|--2-----------------2-0-3-----------------------3-0---|
|--0---------------------------------------------------|
|------------------------------------------------------|


|--------------0------------------------------------------------|
|----------0-------------0-----------------1-------------0------|
|------1-------------1-----1------------------0-------------1---|
|--2--------------------------2-0------2-------------0----------|
|------------------------------------3-------------2------------|
|---------------------------------------------------------------|


A x 3

B:

_______PM........(x2)
|--0--0-------------|---0----------------|
|--1--1-------------|---1----------------|
|--2--2---2-2-2-2---|---2----2----4------|
|--2--2---3-3-3-3---|---2----3----5------| x 2
|--0--0---3-3-3-3---|---0----3----5------|
|---------3-3-3-3---|--------3----5------|

A x 2

B x 2

Solo (A´):

|--------------------7h8p7------------------7h8p7-----7------------------|
|---8s10---8h10-------------10--8--10------------10----------------------|
|-----------------------------------------------------------------9------|
|------------------------------------------------------------------------|
|------------------------------------------------------------------------|
|------------------------------------------------------------------------|

|---7-8-9---9-9-9-8-7---8-8-8-8-8-7----------------------|
|-------------------------------------------10-8--10-----|
|--------------------------------------------------------|
|--------------------------------------------------------|
|--------------------------------------------------------|
|--------------------------------------------------------|

B x 2

A x 2



Enemy

Tuning: C# G# C#...

RIFF A x2:

D#|-----------------------------------------------------|
A#|--8p6-6-6-8p6-6-6-8p6------6-6-8p6-6-6-8p6-6---------|
F#|----------------------9-7--------------------5-5-5s7-|

D#|--------------------------------------------------------------|
A#|--6-6-8p6-6-6-8p6-6-6-8p6-----6-6-8p6-6-6-8p6-6-6-8p6-6-6-8p6-|
F#|--------------------------9-7---------------------------------|



RIFF B:
????????(x3)
|-(0)------------|--0--0--0--0--|
|--3--3--3--3----|--1--1--1--1--|
|--2--2--2--0----|--0--0--0--0--|
|--0--0--0--0----|--2--2--2--2--| (x 4)
|--0--0--0--0----|--3--3--3--3--|
|--0--0--0--0----|--------------|

RIFF C:

- PM?,----------PM?,
|--------------------------------|
|--------------------------------|
|---------10s12-------9s10-------|
|--0-0------------0-0------------| (x 4)
|----------8s10--------7s8-------|
|--------------------------------|

RIFF B´:
????????(x3)
|----------------|--0--0--0--0--|
|----------------|--1--1--1--1--|
|----------------|--0--0--0--0--|
|---(RIFF C)-----|--2--2--2--2--| (x 4)
|----------------|--3--3--3--3--|
|----------------|--------------|

RIFF B x 2

RIFF B´´:

|--0----------0-----------------|
|--3----3--------3--------------|
|--2--------2------2------5-----|
|--0--------------------2-------|
|--0------------------3------3--|
|--0----------------------------|

|--0---------------------------|
|--3---------------------------|
|--2----------------------5----|
|--0--------------------2------|
|--0----3p0----------3------3--|
|--0---------3-0---------------|

|--0---------------------------|
|--3---------------------------|
|--2-----------------------5---|
|--0----------3-0-------2------|
|--0----3p0----------3-------3-|
|--0---------------------------|

...........................We are on
|--0------------------0--------|
|--3------------------1--------|
|--2------------------0--------|
|--0------------------2--------|
|--0----3p0-----------3--------|
|--0---------3-0---------------|

Drugs.............................we are on
|--0--------------0-----------0---0--------|
|--3------------3------3------1---1--------|
|--2------0h2------------2----0---0--------|
|--0--------------------------2---2--------|
|--0--------------------------3---3--------|
|--0---------------------------------------|

Drugs,
|--0--------------0--------------------|
|--3------------3------3-------3-------|
|--2------0h2------------2p0----2------|
|--0-----------------------------------|
|--0-----------------------------------|
|--0-----------------------------------|

....we.....are.on.drugs...........we are on
|--0--0---0---0--0---------------0--0-----|
|--3--3---1---1--3---------------1--1-----|
|--2--2---0---0--2---------------0--0-----|
|--0--0---2---2--0---------------2--2-----|
|--0--0---3---3--0?3p0----------3--3------|
|--0--0----------0-------3--0-------------|

Drugs.....................we are on
|--0---------------------0---0---------|
|--3---------------------1---1---------|
|--2---------------------0---0---------|
|--0----------3-0--------2---2---------|
|--0----3p0--------------3---3---------|
|--0-----------------------------------|

drugs..................baby...we are on drugs
.....................................do you like drugs?
|--0--0---------------------|--0-----0------0----|
|--3--3---------------------|--3-----1------3----|
|--2--2---------------------|--2-----0------2----|
|--0--0---------------------|--0-----2------0----|
|--0--0---?3p0--------------|--0-----3------0----|
|--0--0----------3--0-------|--0------------0----|

RIFF A x 2
RIFF B x 2



Scars on Broadway - Funny

Tuning: C# G# C#...

A:

|-------------------------------------------------------|
|-------------------------------------------------------|
|-------------------------------------------------------|
|-------------------------------------------------------|
|-------------------------------------------------------|
|---7-----9--10--5-----7--9--3-----5--7--2----10--9-----| x 2


A´:

|-----------(10)------|
|-(13)-(12)------(9)--| () synthesizer
|--5----4----2----1---|
|--7----5----3----2---|
|--7----5----3----2---|
|--7----5----3----2---|

A x 2

A´´:

PM.........................,
|-----------------------|
|-----------------------|
|--5----4----2----1-----|
|--7----5----3----2-----| x 2
|-----------------------|
|-----------------------|


A´´´:

|-----------(10)-(12)-|
|-(13)-(12)-6----(9)--| () synthesizer
|--5----4----7----1---|
|--7----5----7----2---| x 2
|--7----5----5----2---|
|--7----5---------2---|



A´´x 2

A´ x 2


Serious


#1044;орожка 1
Q E E E E E E E E E E Q E E E E
E||----------------------------|----------------------------|
B||----------------------------|----------------------------|
G||----------------------------|----------------------------|
D||----------------------------|----------------------------|
A||--2----2--2--2--2--2--2--2--|--2--2--2--2----2--2--2--2--|
E||--0----0--0--0--0--0--0--0--|--0--0--0--0----0--0--0--0--|


Q E E E E E E E E E E Q E E E E
----------------------------|----------------------------|
----------------------------|----------------------------|
----------------------------|----------------------------|
----------------------------|----------------------------|
--2----2--2--2--2--2--2--2--|--2--2--2--2----2--2--2--2--|
--0----0--0--0--0--0--0--0--|--0--0--0--0----0--0--0--0--|


Q E E E E E E E E E E Q E E E E
----------------------------|----------------------------|
----------------------------|----------------------------|
----------------------------|----------------------------|
--5----5--5--5--5--5--5--5--|--5--5--5--5----5--5--5--5--|
--3----3--3--3--3--3--3--3--|--3--3--3--3----3--3--3--3--|
----------------------------|----------------------------|


Q E E E E E E E E E E Q E E E E
----------------------------|----------------------------|
----------------------------|----------------------------|
----------------------------|----------------------------|
----------------------------|----------------------------|
--2----2--2--2--2--2--2--2--|--2--2--2--2----2--2--2--2--|
--0----0--0--0--0--0--0--0--|--0--0--0--0----0--0--0--0--|


Q E E E E E E E E E E Q E E E E
----------------------------|----------------------------|
----------------------------|----------------------------|
----------------------------|----------------------------|
----------------------------|----------------------------|
--2----2--2--2--2--2--2--2--|--2--2--2--2----2--2--2--2--|
--0----0--0--0--0--0--0--0--|--0--0--0--0----0--0--0--0--|


Q E E E E E E E E E E Q E E E E
----------------------------|----------------------------|
----------------------------|----------------------------|
----------------------------|----------------------------|
----------------------------|----------------------------|
--2----2--2--2--2--2--2--2--|--2--2--2--2----2--2--2--2--|
--0----0--0--0--0--0--0--0--|--0--0--0--0----0--0--0--0--|


Q E E E E E E E E E E Q E E E E
----------------------------|----------------------------|
----------------------------|----------------------------|
----------------------------|----------------------------|
--5----5--5--5--5--5--5--5--|--5--5--5--5----5--5--5--5--|
--3----3--3--3--3--3--3--3--|--3--3--3--3----3--3--3--3--|
----------------------------|----------------------------|


^
Q E E E E E E E E E E Q E E E E W
----------------------------|----------------------------|--0----------------|
----------------------------|----------------------------|--1----------------|
----------------------------|----------------------------|--2----------------|
----------------------------|----------------------------|--2----------------|
--2----2--2--2--2--2--2--2--|--2--2--2--2----2--2--2--2--|--0----------------|
--0----0--0--0--0--0--0--0--|--0--0--0--0----0--0--0--0--|--0----------------|


^ ^
W W
-------------------|--1----------------|-------------------|--3----------------|
-------------------|--3----------------|-------------------|--0----------------|
-------------------|--2----------------|-------------------|--0----------------|
-------------------|--0----------------|-------------------|--0----------------|
-------------------|--0----------------|-------------------|--2----------------|
-------------------|--0----------------|-------------------|--3----------------|


^ ^
W W
-------------------|--0----------------|-------------------|--0----------------|
-------------------|--1----------------|-------------------|--1----------------|
-------------------|--0----------------|-------------------|--2----------------|
-------------------|--2----------------|-------------------|--2----------------|
-------------------|--3----------------|-------------------|--0----------------|
-------------------|--0----------------|-------------------|--0----------------|


^
W
-------------------|--1----------------|-------------------|
-------------------|--3----------------|-------------------|
-------------------|--2----------------|-------------------|
-------------------|--0----------------|-------------------|
-------------------|--0----------------|-------------------|
-------------------|--0----------------|-------------------|


Q E E E E E E E E E E Q E E E E
----------------------------|----------------------------|
----------------------------|----------------------------|
----------------------------|----------------------------|
----------------------------|----------------------------|
--2----2--2--2--2--2--2--2--|--2--2--2--2----2--2--2--2--|
--0----0--0--0--0--0--0--0--|--0--0--0--0----0--0--0--0--|


Q E E E E E E E E E E Q E E E E
----------------------------|----------------------------|
----------------------------|----------------------------|
----------------------------|----------------------------|
----------------------------|----------------------------|
--2----2--2--2--2--2--2--2--|--2--2--2--2----2--2--2--2--|
--0----0--0--0--0--0--0--0--|--0--0--0--0----0--0--0--0--|


Q E E E E E E E E E E Q E E E E
----------------------------|----------------------------|
----------------------------|----------------------------|
----------------------------|----------------------------|
--5----5--5--5--5--5--5--5--|--5--5--5--5----5--5--5--5--|
--3----3--3--3--3--3--3--3--|--3--3--3--3----3--3--3--3--|
----------------------------|----------------------------|


^
Q E E E E E E E E E E Q E E E E W
----------------------------|----------------------------|--0----------------|
----------------------------|----------------------------|--1----------------|
----------------------------|----------------------------|--2----------------|
----------------------------|----------------------------|--2----------------|
--2----2--2--2--2--2--2--2--|--2--2--2--2----2--2--2--2--|--0----------------|
--0----0--0--0--0--0--0--0--|--0--0--0--0----0--0--0--0--|--0----------------|


^ ^
W W
-------------------|--1----------------|-------------------|--3----------------|
-------------------|--3----------------|-------------------|--0----------------|
-------------------|--2----------------|-------------------|--0----------------|
-------------------|--0----------------|-------------------|--0----------------|
-------------------|--0----------------|-------------------|--2----------------|
-------------------|--0----------------|-------------------|--3----------------|


^ ^
W W
-------------------|--0----------------|-------------------|--0----------------|
-------------------|--1----------------|-------------------|--1----------------|
-------------------|--0----------------|-------------------|--2----------------|
-------------------|--2----------------|-------------------|--2----------------|
-------------------|--3----------------|-------------------|--0----------------|
-------------------|--0----------------|-------------------|--0----------------|


^
W
-------------------|--1----------------|-------------------|
-------------------|--3----------------|-------------------|
-------------------|--2----------------|-------------------|
-------------------|--0----------------|-------------------|
-------------------|--0----------------|-------------------|
-------------------|--0----------------|-------------------|


E E E E E E E E E E E E E E E E
--------------------------|---------------------------|
--------------------------|---------------------------|
--------------------------|---------------------------|
--------------------------|---------------------------|
--------8-----------9-----|--------8-----------11-----|
--0--0--------0--0--------|--0--0--------0--0---------|


E E E E E E E E E E E E E E E E
--------------------------|--------------------------|
--------------------------|--------------------------|
--------------------------|--------------------------|
--------------------------|--------------------------|
--------8-----------9-----|--------8-----------6-----|
--0--0--------0--0--------|--0--0--------0--0--------|


E E E E E E E E E E E E E E E E
--------------------------|---------------------------|
--------------------------|---------------------------|
--------------------------|---------------------------|
--------------------------|---------------------------|
--------8-----------9-----|--------8-----------11-----|
--0--0--------0--0--------|--0--0--------0--0---------|


E E E E E E E E E E E E E E E E
--------------------------|--------------------------|
--------------------------|--------------------------|
--------------------------|--------------------------|
--------------------------|--------------------------|
--------8-----------9-----|--------8-----------6-----|
--0--0--------0--0--------|--0--0--------0--0--------|


E E E E E E E E E E E E E E E E
--------------------------|---------------------------|
--------------------------|---------------------------|
--------------------------|---------------------------|
--------------------------|---------------------------|
--------8-----------9-----|--------8-----------11-----|
--0--0--------0--0--------|--0--0--------0--0---------|


E E E E E E E E E E E E E E E E
--------------------------|--------------------------|
--------------------------|--------------------------|
--------------------------|--------------------------|
--------------------------|--------------------------|
--------8-----------9-----|--------8-----------6-----|
--0--0--------0--0--------|--0--0--------0--0--------|


E E E E E E E E E E E E E E E E
--------------------------|---------------------------|
--------------------------|---------------------------|
--------------------------|---------------------------|
--------------------------|---------------------------|
--------8-----------9-----|--------8-----------11-----|
--0--0--------0--0--------|--0--0--------0--0---------|


E E E E E E E E E E E E E E E E
--------------------------|--------------------------|
--------------------------|--------------------------|
--------------------------|--------------------------|
--------------------------|--------------------------|
--------8-----------9-----|--------8-----------6-----|
--0--0--------0--0--------|--0--0--------0--0--------|


Q E E E E E E E E E E Q E E E E
----------------------------|----------------------------|
----------------------------|----------------------------|
----------------------------|----------------------------|
--2----2--2--2--2--2--2--2--|--2--2--2--2----2--2--2--2--|
--0----0--0--0--0--0--0--0--|--0--0--0--0----0--0--0--0--|
----------------------------|----------------------------|


Q E E E E E E E E E E Q E E E E
----------------------------|----------------------------|
----------------------------|----------------------------|
----------------------------|----------------------------|
--7----7--7--7--7--7--7--7--|--7--7--7--7----7--7--7--7--|
--5----5--5--5--5--5--5--5--|--5--5--5--5----5--5--5--5--|
----------------------------|----------------------------|


Q E E E E E E E E E E Q E E E E
----------------------------|----------------------------|
----------------------------|----------------------------|
----------------------------|----------------------------|
----------------------------|----------------------------|
--5----5--5--5--5--2--5--5--|--5--5--5--5----5--5--5--5--|
--3----3--3--3--3--3--3--3--|--3--3--3--3----3--3--3--3--|


Q E E E E E E E E E E Q E E E E
----------------------------|----------------------------|
----------------------------|----------------------------|
----------------------------|----------------------------|
--5----5--5--5--5--5--5--5--|--5--5--5--5----5--5--5--5--|
--3----3--3--3--3--3--3--3--|--3--3--3--3----3--3--3--3--|
----------------------------|----------------------------|


Q E E E E E E E E E E Q E E E E
----------------------------|----------------------------|
----------------------------|----------------------------|
----------------------------|----------------------------|
--2----2--2--2--2--2--2--2--|--2--2--2--2----2--2--2--2--|
--0----0--0--0--0--0--0--0--|--0--0--0--0----0--0--0--0--|
----------------------------|----------------------------|


Q E E E E E E E E E E Q E E E E
----------------------------|----------------------------|
----------------------------|----------------------------|
----------------------------|----------------------------|
--7----7--7--7--7--7--7--7--|--7--7--7--7----7--7--7--7--|
--5----5--5--5--5--5--5--5--|--5--5--5--2----5--5--5--5--|
----------------------------|----------------------------|


E E E E E E E E E E E E E E E E
--------------------------|---------------------------|
--------------------------|---------------------------|
--------------------------|---------------------------|
--------------------------|---------------------------|
--------8-----------9-----|--------8-----------11-----|
--0--0--------0--0--------|--0--0--------0--0---------|


E E E E E E E E E E E E E E E E
--------------------------|--------------------------|
--------------------------|--------------------------|
--------------------------|--------------------------|
--------------------------|--------------------------|
--------8-----------9-----|--------8-----------6-----|
--0--0--------0--0--------|--0--0--------0--0--------|


E E E E E E E E E E E E E E E E
--------------------------|---------------------------|
--------------------------|---------------------------|
--------------------------|---------------------------|
--------------------------|---------------------------|
--------8-----------9-----|--------8-----------11-----|
--0--0--------0--0--------|--0--0--------0--0---------|


E E E E E E E E E E E E E E E E
--------------------------|--------------------------||
--------------------------|--------------------------||
--------------------------|--------------------------||
--------------------------|--------------------------||
--------8-----------9-----|--------8-----------6-----||
--0--0--------0--0--------|--0--0--------0--0--------||



Приятной игры))
Вернуться к началу
Посмотреть профиль Отправить личное сообщение
xART
Crazy Motherfucker


Зарегистрирован: 19.10.2007
Сообщения: 811
Откуда: 4ернигофф

СообщениеДобавлено: Пн Июл 21, 2008 1:12 am    Заголовок сообщения: Ответить с цитатой

IgorPunk
Ого! Респект! Жаль я в этом нихуя не понимаю..((
Вернуться к началу
Посмотреть профиль Отправить личное сообщение
ALuserX
псих-одиночка


Зарегистрирован: 14.10.2005
Сообщения: 9824
Откуда: немецыя

СообщениеДобавлено: Пн Июл 21, 2008 1:18 am    Заголовок сообщения: Ответить с цитатой

Код:
public class Applause extends Respect implements Xart {
   public static void main(){
      System.out.println( "Hello, World!" );
   }
}


/me ждет аплодисментов, цветов и т.д....
_________________

`$=`;$_=\%!;($_)=/(.)/;$==++$|;($.,$/,$,,$\,$",$;,$^,$#,$~,$*,$:,@% )=(
$!=~/(.)(.).(.)(.)(.)(.)..(.)(.)(.)..(.)......(.)/,$"),$=++;$.++;$.++;
$_++;$_++;($_,$\,$,)=($~.$"."$;$/$%[$?]$_$\$,$:$%[$?]",$"&$~,$#,);$,++
;$,++;$^|=$";`$_$\$,$/$:$;$~$*$%[$?]$.$~$*${#}$%[$?]$;$\$"$^$~$*.>&$=`
Perl rulz!

http://www.naushko.ru/voteresult.php?id=105773
Вернуться к началу
Посмотреть профиль Отправить личное сообщение Отправить e-mail Посетить сайт автора AIM Address Yahoo Messenger MSN Messenger
genj
Солнц))


Зарегистрирован: 07.07.2007
Сообщения: 8494

СообщениеДобавлено: Пн Июл 21, 2008 11:43 am    Заголовок сообщения: Ответить с цитатой

ALuserX
КАКОГО...? Shocked ЧТО ЗА.....? Shocked
Вернуться к началу
Посмотреть профиль Отправить личное сообщение Отправить e-mail
Показать сообщения:   
Начать новую тему   Ответить на тему    Список форумов Serj on SoaDpage -> Solo Projects Часовой пояс: GMT + 4
На страницу Пред.  1, 2, 3, 4  След.
Страница 3 из 4

 
Перейти:  
Вы не можете начинать темы
Вы не можете отвечать на сообщения
Вы не можете редактировать свои сообщения
Вы не можете удалять свои сообщения
Вы не можете голосовать в опросах



smartDark Style by Smartor
Powered by phpBB © 2001, 2002 phpBB Group
 


Rambler's Top100